Register for your free account! | Forgot your password?

You last visited: Today at 20:45

  • Please register to post and access all features, it's quick, easy and FREE!

 

[Release] Schlatterbot 0.10.9.22

View Poll Results: How do u like the Schlatterbot?
Total shit 43 18.78%
Excellent, thx 4 sharing it! 130 56.77%
good, but too buggy 56 24.45%
Voters: 229. You may not vote on this poll

Reply
 
Old   #376
 
elite*gold: 0
Join Date: Nov 2008
Posts: 20
Received Thanks: 0
how I can get GM Quiz off ??



nber is offline  
Old   #377
 
elite*gold: 0
Join Date: Nov 2008
Posts: 365
Received Thanks: 276
Quote:
Originally Posted by nber View Post
how I can get GM Quiz off ??
u can only select:
do nothing
warning
do relog
do a guess or relog

ATM it exist no solution to solve the gm quiz.


schlat is offline  
Old   #378
 
elite*gold: 0
Join Date: May 2009
Posts: 1,047
Received Thanks: 468
Quote:
Originally Posted by nber View Post
how I can get GM Quiz off ??
Do do nothing on the bot
ax5 is offline  
Old   #379
 
elite*gold: 0
Join Date: Nov 2008
Posts: 20
Received Thanks: 0
it still tp to DC O_o


nber is offline  
Old   #380
 
elite*gold: 0
Join Date: Nov 2008
Posts: 365
Received Thanks: 276
Quote:
Originally Posted by nber View Post
it still tp to DC O_o
i cant help u if i dont know what u are doing!!!

My crystall ball is atm defect.

Post u bot settings and if u want the bot.log file (only the last sentence where the bot teleports back) and i will keep a look.
schlat is offline  
Old   #381
 
elite*gold: 0
Join Date: Apr 2010
Posts: 92
Received Thanks: 5
it start to attack but after about 10minutes it just stop . Thats the problem
lanchera is offline  
Old   #382
 
elite*gold: 0
Join Date: May 2009
Posts: 1,047
Received Thanks: 468
Quote:
Originally Posted by lanchera View Post
it start to attack but after about 10minutes it just stop . Thats the problem
Use the other bot ^^
ax5 is offline  
Old   #383
 
elite*gold: 0
Join Date: Nov 2008
Posts: 365
Received Thanks: 276
Quote:
Originally Posted by ax5 View Post
Use the other bot ^^
why use an other bot if i am definitly shure that is an misconfiguration????
the problem exist after all!!!!!
u dont use win95 cause u dont know how to open fucking editor in win7, or?!

Quote:
Originally Posted by lanchera View Post
it start to attack but after about 10minutes it just stop . Thats the problem
like my last post!!! I dont have a crystal ball and can see in u lokal bot settings.

For all future questions or i dont answer!!!!
Please post u bot settings (user.ini) like
Code:
Health=500
Chi=500
Pet_Health=500
Pet_Hunger=95
Auto_Teleport=200
Auto_Skill=0
Auto_Buff=0
GM_Quiz=0
Auto_Pick=0
Win_Timer=300000
Auto_Attack=0
Buff_CD1=10000
Buff_CD2=10000
Buff_CD3=10000
Buff_CD4=10000
Skill_CD1=2000
Skill_CD2=2000
Skill_CD3=2000
Skill_CD4=2000
Skill_CD5=2000
Skill_CD6=2000
Skill_CD7=2000
HP_Pot_Range=2
Chi_Pot_Range=4
Pet_Pot_Range=3
Target_Timer=3000
Key_CoolDown=500
Equiped=0
Inventory_Teleport=0
HealSkill=0
PotDelay=0
and the last lines of the bot.log (the reason why the bot stops!!!)
Code:
2010-06-01 21:33:39 :  Command: Health :  --> dead!!!
2010-06-01 21:33:39 : -----------------------------------------------------
2010-06-01 21:33:42 :  Command: Health :  --> Teleporting to Safe Zone!!!
2010-06-01 21:33:42 : -----------------------------------------------------
2010-06-01 21:33:42 :  Command: Health :  --> dead!!!
2010-06-01 21:33:42 : -----------------------------------------------------
2010-06-01 21:33:46 :  Command: Health :  --> Teleporting to Safe Zone!!!
2010-06-01 21:33:46 : -----------------------------------------------------
2010-06-01 21:33:46 :  Command: Health :  --> dead!!!
2010-06-01 21:33:46 : -----------------------------------------------------
Edit: K, a big new update of the hero client with a new gui, skill system etc comes today. This means my bot needs a big update too. Dont know how long this could take...just added a new simpler skill system and now i can redo it o.O lol
schlat is offline  
Old   #384
 
elite*gold: 0
Join Date: Apr 2010
Posts: 92
Received Thanks: 5
Quote:
[User]
Health=50
Chi=50
Pet_Health=50
Pet_Hunger=95
Auto_Teleport=20
Auto_Skill=0
Auto_Buff=0
GM_Quiz=0
Auto_Pick=0
Win_Timer=300000
Buff_Timer=60000
Ataraxia=0
Auto_Attack=0
Buff_CD1=10000
Buff_CD2=10000
Buff_CD3=10000
Buff_CD4=10000
Skill_CD1=2000
Skill_CD2=2000
Skill_CD3=2000
Skill_CD4=2000
Skill_CD5=2000
Skill_CD6=2000
Skill_CD7=2000
HP_Pot_Range=3
Chi_Pot_Range=4
Pet_Pot_Range=8
Target_Timer=3000
Key_CoolDown=500

and
the bot log
Quote:
2010-05-21 20:31:35 : Command: Filecheck : --> F:\Mgame\Hero_Online\Hero.exe is ok.
2010-05-21 20:31:35 : -----------------------------------------------------
2010-05-21 20:31:35 : Command: Filecheck : --> /imagesearchDLL.dll is ok.
2010-05-21 20:31:35 : -----------------------------------------------------
2010-05-21 20:31:35 : Command: Filecheck : --> /sound/warning.wav is ok.
2010-05-21 20:31:35 : -----------------------------------------------------
2010-05-21 20:31:35 : Command: Filecheck : --> /pics/CloseButton.bmp is ok.
2010-05-21 20:31:35 : -----------------------------------------------------
2010-05-21 20:31:35 : Command: Filecheck : --> /pics/CloseMenuButton.bmp is ok.
2010-05-21 20:31:35 : -----------------------------------------------------
2010-05-21 20:31:35 : Command: Filecheck : --> /pics/enterAnswer.bmp is ok.
2010-05-21 20:31:35 : -----------------------------------------------------
2010-05-21 20:31:35 : Command: Filecheck : --> /pics/freelot.bmp is ok.
2010-05-21 20:31:35 : -----------------------------------------------------
2010-05-21 20:31:35 : Command: Filecheck : --> /pics/GameStart.bmp is ok.
2010-05-21 20:31:35 : -----------------------------------------------------
2010-05-21 20:31:35 : Command: Filecheck : --> /pics/gmquiz.bmp is ok.
2010-05-21 20:31:35 : -----------------------------------------------------
2010-05-21 20:31:35 : Command: Filecheck : --> /pics/lot.bmp is ok.
2010-05-21 20:31:35 : -----------------------------------------------------
2010-05-21 20:31:35 : Command: Filecheck : --> /pics/lot_start.bmp is ok.
2010-05-21 20:31:35 : -----------------------------------------------------
2010-05-21 20:31:35 : Command: Filecheck : --> /pics/lot_stop.bmp is ok.
2010-05-21 20:31:35 : -----------------------------------------------------
2010-05-21 20:31:35 : Command: Filecheck : --> /pics/MouseCancel.bmp is ok.
2010-05-21 20:31:35 : -----------------------------------------------------
2010-05-21 20:31:35 : Command: Filecheck : --> /pics/SelectCharacter.bmp is ok.
2010-05-21 20:31:35 : -----------------------------------------------------
2010-05-21 20:31:35 : Command: Filecheck : --> /pics/OK.bmp is ok.
2010-05-21 20:31:35 : -----------------------------------------------------
2010-05-23 10:27:41 : Command: Filecheck : --> F:\Mgame\Hero_Online\Hero.exe is ok.
2010-05-23 10:27:41 : -----------------------------------------------------
2010-05-23 10:27:41 : Command: Filecheck : --> /imagesearchDLL.dll is ok.
2010-05-23 10:27:41 : -----------------------------------------------------
2010-05-23 10:27:41 : Command: Filecheck : --> /sound/warning.wav is ok.
2010-05-23 10:27:41 : -----------------------------------------------------
2010-05-23 10:27:41 : Command: Filecheck : --> /pics/CloseButton.bmp is ok.
2010-05-23 10:27:41 : -----------------------------------------------------
2010-05-23 10:27:41 : Command: Filecheck : --> /pics/CloseMenuButton.bmp is ok.
2010-05-23 10:27:41 : -----------------------------------------------------
2010-05-23 10:27:41 : Command: Filecheck : --> /pics/enterAnswer.bmp is ok.
2010-05-23 10:27:41 : -----------------------------------------------------
2010-05-23 10:27:41 : Command: Filecheck : --> /pics/freelot.bmp is ok.
2010-05-23 10:27:41 : -----------------------------------------------------
2010-05-23 10:27:41 : Command: Filecheck : --> /pics/GameStart.bmp is ok.
2010-05-23 10:27:41 : -----------------------------------------------------
2010-05-23 10:27:41 : Command: Filecheck : --> /pics/gmquiz.bmp is ok.
2010-05-23 10:27:41 : -----------------------------------------------------
2010-05-23 10:27:41 : Command: Filecheck : --> /pics/lot.bmp is ok.
2010-05-23 10:27:41 : -----------------------------------------------------
2010-05-23 10:27:41 : Command: Filecheck : --> /pics/lot_start.bmp is ok.
2010-05-23 10:27:41 : -----------------------------------------------------
2010-05-23 10:27:41 : Command: Filecheck : --> /pics/lot_stop.bmp is ok.
2010-05-23 10:27:41 : -----------------------------------------------------
2010-05-23 10:27:41 : Command: Filecheck : --> /pics/MouseCancel.bmp is ok.
2010-05-23 10:27:42 : -----------------------------------------------------
2010-05-23 10:27:42 : Command: Filecheck : --> /pics/SelectCharacter.bmp is ok.
2010-05-23 10:27:42 : -----------------------------------------------------
2010-05-23 10:27:42 : Command: Filecheck : --> /pics/OK.bmp is ok.
2010-05-23 10:27:42 : -----------------------------------------------------
2010-05-23 10:29:46 : ################################################## ###
2010-05-23 10:29:46 : #Schlatterbot by Schlat is started..................#
2010-05-23 10:29:46 : ################################################## ###
2010-05-23 10:30:25 : ################################################## ###
2010-05-23 10:30:25 : #Shutting down Schlatterbot.........................#
2010-05-23 10:30:25 : ################################################## ###
2010-05-23 10:30:36 : ################################################## ###
2010-05-23 10:30:36 : #Schlatterbot by Schlat is started..................#
2010-05-23 10:30:36 : ################################################## ###
2010-05-23 10:31:18 : ################################################## ###
2010-05-23 10:31:18 : #Shutting down Schlatterbot.........................#
2010-05-23 10:31:18 : ################################################## ###
2010-05-31 17:47:04 : Command: Filecheck : --> F:\Mgame\Hero_Online\Hero.exe is ok.
2010-05-31 17:47:04 : -----------------------------------------------------
2010-05-31 17:47:04 : Command: Filecheck : --> /imagesearchDLL.dll is ok.
2010-05-31 17:47:04 : -----------------------------------------------------
2010-05-31 17:47:05 : Command: Filecheck : --> /sound/warning.wav is ok.
2010-05-31 17:47:05 : -----------------------------------------------------
2010-05-31 17:47:05 : Command: Filecheck : --> /pics/CloseButton.bmp is ok.
2010-05-31 17:47:05 : -----------------------------------------------------
2010-05-31 17:47:05 : Command: Filecheck : --> /pics/CloseMenuButton.bmp is ok.
2010-05-31 17:47:05 : -----------------------------------------------------
2010-05-31 17:47:05 : Command: Filecheck : --> /pics/enterAnswer.bmp is ok.
2010-05-31 17:47:05 : -----------------------------------------------------
2010-05-31 17:47:05 : Command: Filecheck : --> /pics/freelot.bmp is ok.
2010-05-31 17:47:05 : -----------------------------------------------------
2010-05-31 17:47:05 : Command: Filecheck : --> /pics/GameStart.bmp is ok.
2010-05-31 17:47:05 : -----------------------------------------------------
2010-05-31 17:47:05 : Command: Filecheck : --> /pics/gmquiz.bmp is ok.
2010-05-31 17:47:05 : -----------------------------------------------------
2010-05-31 17:47:05 : Command: Filecheck : --> /pics/lot.bmp is ok.
2010-05-31 17:47:05 : -----------------------------------------------------
2010-05-31 17:47:05 : Command: Filecheck : --> /pics/lot_start.bmp is ok.
2010-05-31 17:47:05 : -----------------------------------------------------
2010-05-31 17:47:05 : Command: Filecheck : --> /pics/lot_stop.bmp is ok.
2010-05-31 17:47:05 : -----------------------------------------------------
2010-05-31 17:47:05 : Command: Filecheck : --> /pics/MouseCancel.bmp is ok.
2010-05-31 17:47:05 : -----------------------------------------------------
2010-05-31 17:47:05 : Command: Filecheck : --> /pics/SelectCharacter.bmp is ok.
2010-05-31 17:47:05 : -----------------------------------------------------
2010-05-31 17:47:05 : Command: Filecheck : --> /pics/OK.bmp is ok.
2010-05-31 17:47:05 : -----------------------------------------------------
2010-05-31 17:57:51 : Command: Filecheck : --> F:\Mgame\Hero_Online\Hero.exe is ok.
2010-05-31 17:57:51 : -----------------------------------------------------
2010-05-31 17:57:51 : Command: Filecheck : --> /imagesearchDLL.dll is ok.
2010-05-31 17:57:51 : -----------------------------------------------------
2010-05-31 17:57:51 : Command: Filecheck : --> /sound/warning.wav is ok.
2010-05-31 17:57:51 : -----------------------------------------------------
2010-05-31 17:57:51 : Command: Filecheck : --> /pics/CloseButton.bmp is ok.
2010-05-31 17:57:51 : -----------------------------------------------------
2010-05-31 17:57:51 : Command: Filecheck : --> /pics/CloseMenuButton.bmp is ok.
2010-05-31 17:57:51 : -----------------------------------------------------
2010-05-31 17:57:51 : Command: Filecheck : --> /pics/enterAnswer.bmp is ok.
2010-05-31 17:57:51 : -----------------------------------------------------
2010-05-31 17:57:51 : Command: Filecheck : --> /pics/freelot.bmp is ok.
2010-05-31 17:57:51 : -----------------------------------------------------
2010-05-31 17:57:51 : Command: Filecheck : --> /pics/GameStart.bmp is ok.
2010-05-31 17:57:51 : -----------------------------------------------------
2010-05-31 17:57:51 : Command: Filecheck : --> /pics/gmquiz.bmp is ok.
2010-05-31 17:57:51 : -----------------------------------------------------
2010-05-31 17:57:51 : Command: Filecheck : --> /pics/lot.bmp is ok.
2010-05-31 17:57:51 : -----------------------------------------------------
2010-05-31 17:57:51 : Command: Filecheck : --> /pics/lot_start.bmp is ok.
2010-05-31 17:57:51 : -----------------------------------------------------
2010-05-31 17:57:51 : Command: Filecheck : --> /pics/lot_stop.bmp is ok.
2010-05-31 17:57:51 : -----------------------------------------------------
2010-05-31 17:57:51 : Command: Filecheck : --> /pics/MouseCancel.bmp is ok.
2010-05-31 17:57:52 : -----------------------------------------------------
2010-05-31 17:57:52 : Command: Filecheck : --> /pics/SelectCharacter.bmp is ok.
2010-05-31 17:57:52 : -----------------------------------------------------
2010-05-31 17:57:52 : Command: Filecheck : --> /pics/OK.bmp is ok.
2010-05-31 17:57:52 : -----------------------------------------------------
lanchera is offline  
Old   #385
 
elite*gold: 0
Join Date: Apr 2010
Posts: 92
Received Thanks: 5
Exclamation

Quote:
[User]
Health=50
Chi=50
Pet_Health=50
Pet_Hunger=95
Auto_Teleport=20
Auto_Skill=0
Auto_Buff=0
GM_Quiz=0
Auto_Pick=0
Win_Timer=300000
Buff_Timer=60000
Ataraxia=0
Auto_Attack=0
Buff_CD1=10000
Buff_CD2=10000
Buff_CD3=10000
Buff_CD4=10000
Skill_CD1=2000
Skill_CD2=2000
Skill_CD3=2000
Skill_CD4=2000
Skill_CD5=2000
Skill_CD6=2000
Skill_CD7=2000
HP_Pot_Range=3
Chi_Pot_Range=4
Pet_Pot_Range=8
Target_Timer=3000
Key_CoolDown=500

and
the bot log
Quote:
2010-05-21 20:31:35 : Command: Filecheck : --> F:\Mgame\Hero_Online\Hero.exe is ok.
2010-05-21 20:31:35 : -----------------------------------------------------
2010-05-21 20:31:35 : Command: Filecheck : --> /imagesearchDLL.dll is ok.
2010-05-21 20:31:35 : -----------------------------------------------------
2010-05-21 20:31:35 : Command: Filecheck : --> /sound/warning.wav is ok.
2010-05-21 20:31:35 : -----------------------------------------------------
2010-05-21 20:31:35 : Command: Filecheck : --> /pics/CloseButton.bmp is ok.
2010-05-21 20:31:35 : -----------------------------------------------------
2010-05-21 20:31:35 : Command: Filecheck : --> /pics/CloseMenuButton.bmp is ok.
2010-05-21 20:31:35 : -----------------------------------------------------
2010-05-21 20:31:35 : Command: Filecheck : --> /pics/enterAnswer.bmp is ok.
2010-05-21 20:31:35 : -----------------------------------------------------
2010-05-21 20:31:35 : Command: Filecheck : --> /pics/freelot.bmp is ok.
2010-05-21 20:31:35 : -----------------------------------------------------
2010-05-21 20:31:35 : Command: Filecheck : --> /pics/GameStart.bmp is ok.
2010-05-21 20:31:35 : -----------------------------------------------------
2010-05-21 20:31:35 : Command: Filecheck : --> /pics/gmquiz.bmp is ok.
2010-05-21 20:31:35 : -----------------------------------------------------
2010-05-21 20:31:35 : Command: Filecheck : --> /pics/lot.bmp is ok.
2010-05-21 20:31:35 : -----------------------------------------------------
2010-05-21 20:31:35 : Command: Filecheck : --> /pics/lot_start.bmp is ok.
2010-05-21 20:31:35 : -----------------------------------------------------
2010-05-21 20:31:35 : Command: Filecheck : --> /pics/lot_stop.bmp is ok.
2010-05-21 20:31:35 : -----------------------------------------------------
2010-05-21 20:31:35 : Command: Filecheck : --> /pics/MouseCancel.bmp is ok.
2010-05-21 20:31:35 : -----------------------------------------------------
2010-05-21 20:31:35 : Command: Filecheck : --> /pics/SelectCharacter.bmp is ok.
2010-05-21 20:31:35 : -----------------------------------------------------
2010-05-21 20:31:35 : Command: Filecheck : --> /pics/OK.bmp is ok.
2010-05-21 20:31:35 : -----------------------------------------------------
2010-05-23 10:27:41 : Command: Filecheck : --> F:\Mgame\Hero_Online\Hero.exe is ok.
2010-05-23 10:27:41 : -----------------------------------------------------
2010-05-23 10:27:41 : Command: Filecheck : --> /imagesearchDLL.dll is ok.
2010-05-23 10:27:41 : -----------------------------------------------------
2010-05-23 10:27:41 : Command: Filecheck : --> /sound/warning.wav is ok.
2010-05-23 10:27:41 : -----------------------------------------------------
2010-05-23 10:27:41 : Command: Filecheck : --> /pics/CloseButton.bmp is ok.
2010-05-23 10:27:41 : -----------------------------------------------------
2010-05-23 10:27:41 : Command: Filecheck : --> /pics/CloseMenuButton.bmp is ok.
2010-05-23 10:27:41 : -----------------------------------------------------
2010-05-23 10:27:41 : Command: Filecheck : --> /pics/enterAnswer.bmp is ok.
2010-05-23 10:27:41 : -----------------------------------------------------
2010-05-23 10:27:41 : Command: Filecheck : --> /pics/freelot.bmp is ok.
2010-05-23 10:27:41 : -----------------------------------------------------
2010-05-23 10:27:41 : Command: Filecheck : --> /pics/GameStart.bmp is ok.
2010-05-23 10:27:41 : -----------------------------------------------------
2010-05-23 10:27:41 : Command: Filecheck : --> /pics/gmquiz.bmp is ok.
2010-05-23 10:27:41 : -----------------------------------------------------
2010-05-23 10:27:41 : Command: Filecheck : --> /pics/lot.bmp is ok.
2010-05-23 10:27:41 : -----------------------------------------------------
2010-05-23 10:27:41 : Command: Filecheck : --> /pics/lot_start.bmp is ok.
2010-05-23 10:27:41 : -----------------------------------------------------
2010-05-23 10:27:41 : Command: Filecheck : --> /pics/lot_stop.bmp is ok.
2010-05-23 10:27:41 : -----------------------------------------------------
2010-05-23 10:27:41 : Command: Filecheck : --> /pics/MouseCancel.bmp is ok.
2010-05-23 10:27:42 : -----------------------------------------------------
2010-05-23 10:27:42 : Command: Filecheck : --> /pics/SelectCharacter.bmp is ok.
2010-05-23 10:27:42 : -----------------------------------------------------
2010-05-23 10:27:42 : Command: Filecheck : --> /pics/OK.bmp is ok.
2010-05-23 10:27:42 : -----------------------------------------------------
2010-05-23 10:29:46 : ################################################## ###
2010-05-23 10:29:46 : #Schlatterbot by Schlat is started..................#
2010-05-23 10:29:46 : ################################################## ###
2010-05-23 10:30:25 : ################################################## ###
2010-05-23 10:30:25 : #Shutting down Schlatterbot.........................#
2010-05-23 10:30:25 : ################################################## ###
2010-05-23 10:30:36 : ################################################## ###
2010-05-23 10:30:36 : #Schlatterbot by Schlat is started..................#
2010-05-23 10:30:36 : ################################################## ###
2010-05-23 10:31:18 : ################################################## ###
2010-05-23 10:31:18 : #Shutting down Schlatterbot.........................#
2010-05-23 10:31:18 : ################################################## ###
2010-05-31 17:47:04 : Command: Filecheck : --> F:\Mgame\Hero_Online\Hero.exe is ok.
2010-05-31 17:47:04 : -----------------------------------------------------
2010-05-31 17:47:04 : Command: Filecheck : --> /imagesearchDLL.dll is ok.
2010-05-31 17:47:04 : -----------------------------------------------------
2010-05-31 17:47:05 : Command: Filecheck : --> /sound/warning.wav is ok.
2010-05-31 17:47:05 : -----------------------------------------------------
2010-05-31 17:47:05 : Command: Filecheck : --> /pics/CloseButton.bmp is ok.
2010-05-31 17:47:05 : -----------------------------------------------------
2010-05-31 17:47:05 : Command: Filecheck : --> /pics/CloseMenuButton.bmp is ok.
2010-05-31 17:47:05 : -----------------------------------------------------
2010-05-31 17:47:05 : Command: Filecheck : --> /pics/enterAnswer.bmp is ok.
2010-05-31 17:47:05 : -----------------------------------------------------
2010-05-31 17:47:05 : Command: Filecheck : --> /pics/freelot.bmp is ok.
2010-05-31 17:47:05 : -----------------------------------------------------
2010-05-31 17:47:05 : Command: Filecheck : --> /pics/GameStart.bmp is ok.
2010-05-31 17:47:05 : -----------------------------------------------------
2010-05-31 17:47:05 : Command: Filecheck : --> /pics/gmquiz.bmp is ok.
2010-05-31 17:47:05 : -----------------------------------------------------
2010-05-31 17:47:05 : Command: Filecheck : --> /pics/lot.bmp is ok.
2010-05-31 17:47:05 : -----------------------------------------------------
2010-05-31 17:47:05 : Command: Filecheck : --> /pics/lot_start.bmp is ok.
2010-05-31 17:47:05 : -----------------------------------------------------
2010-05-31 17:47:05 : Command: Filecheck : --> /pics/lot_stop.bmp is ok.
2010-05-31 17:47:05 : -----------------------------------------------------
2010-05-31 17:47:05 : Command: Filecheck : --> /pics/MouseCancel.bmp is ok.
2010-05-31 17:47:05 : -----------------------------------------------------
2010-05-31 17:47:05 : Command: Filecheck : --> /pics/SelectCharacter.bmp is ok.
2010-05-31 17:47:05 : -----------------------------------------------------
2010-05-31 17:47:05 : Command: Filecheck : --> /pics/OK.bmp is ok.
2010-05-31 17:47:05 : -----------------------------------------------------
2010-05-31 17:57:51 : Command: Filecheck : --> F:\Mgame\Hero_Online\Hero.exe is ok.
2010-05-31 17:57:51 : -----------------------------------------------------
2010-05-31 17:57:51 : Command: Filecheck : --> /imagesearchDLL.dll is ok.
2010-05-31 17:57:51 : -----------------------------------------------------
2010-05-31 17:57:51 : Command: Filecheck : --> /sound/warning.wav is ok.
2010-05-31 17:57:51 : -----------------------------------------------------
2010-05-31 17:57:51 : Command: Filecheck : --> /pics/CloseButton.bmp is ok.
2010-05-31 17:57:51 : -----------------------------------------------------
2010-05-31 17:57:51 : Command: Filecheck : --> /pics/CloseMenuButton.bmp is ok.
2010-05-31 17:57:51 : -----------------------------------------------------
2010-05-31 17:57:51 : Command: Filecheck : --> /pics/enterAnswer.bmp is ok.
2010-05-31 17:57:51 : -----------------------------------------------------
2010-05-31 17:57:51 : Command: Filecheck : --> /pics/freelot.bmp is ok.
2010-05-31 17:57:51 : -----------------------------------------------------
2010-05-31 17:57:51 : Command: Filecheck : --> /pics/GameStart.bmp is ok.
2010-05-31 17:57:51 : -----------------------------------------------------
2010-05-31 17:57:51 : Command: Filecheck : --> /pics/gmquiz.bmp is ok.
2010-05-31 17:57:51 : -----------------------------------------------------
2010-05-31 17:57:51 : Command: Filecheck : --> /pics/lot.bmp is ok.
2010-05-31 17:57:51 : -----------------------------------------------------
2010-05-31 17:57:51 : Command: Filecheck : --> /pics/lot_start.bmp is ok.
2010-05-31 17:57:51 : -----------------------------------------------------
2010-05-31 17:57:51 : Command: Filecheck : --> /pics/lot_stop.bmp is ok.
2010-05-31 17:57:51 : -----------------------------------------------------
2010-05-31 17:57:51 : Command: Filecheck : --> /pics/MouseCancel.bmp is ok.
2010-05-31 17:57:52 : -----------------------------------------------------
2010-05-31 17:57:52 : Command: Filecheck : --> /pics/SelectCharacter.bmp is ok.
2010-05-31 17:57:52 : -----------------------------------------------------
2010-05-31 17:57:52 : Command: Filecheck : --> /pics/OK.bmp is ok.
2010-05-31 17:57:52 : -----------------------------------------------------
lanchera is offline  
Old   #386
 
elite*gold: 0
Join Date: Nov 2008
Posts: 365
Received Thanks: 276
is this u user settings or the default settings (where u character name is printed [ucharname]) ?

Cause nothing is activated, no skilling, buffing, attack etc. So the bot cant do anything!!

BTW are u using an old version?
Couse
Equiped=15
Inventory_Teleport=0
HealSkill=0
PotDelay=0
is missing!
schlat is offline  
Old   #387
 
elite*gold: 0
Join Date: Jun 2010
Posts: 3
Received Thanks: 0
after the maintenance they're adding a new item delete function without using the mouse to drag and drop. It would be wonderful if the bot can auto delete unwanted item/item slot. Great bot btw!
baka0077 is offline  
Old   #388
 
elite*gold: 0
Join Date: Nov 2008
Posts: 365
Received Thanks: 276
Quote:
Originally Posted by baka0077 View Post
after the maintenance they're adding a new item delete function without using the mouse to drag and drop. It would be wonderful if the bot can auto delete unwanted item/item slot. Great bot btw!
THx
yep i am excited too what this new update brings.
All i know is that i get a lot of work to make the bot working with the new gui.

Last year as the last UI was released over the half of my pointers get lost and i must do a redesign of my bot. I ve added the last days a bunch of new function and now ..recheck again lol...but perhaps these guys make it this time easier 4 me.

An AutoDelete-Function to drop useless things like pet mold or so...sounds good. Gets on my Todo-List (atm over 19 position omg)...but this function must be very secure not to drop u painless drac or lunatic weapon.

One or two things i can say about the new bot version, if its working after update, is an improved skillsystem (autodetecting cooldown and casting) which works really fast. This means droping 2 tabs with timers from the extended setting page (i didnt liked this solution). The another improvement is a little statistc modul which calulates the expected time, kill count and expierence... till next lvl.
A teleport hack which i dont know if i would release it...perhaps as a second hack tool
All this things worked with in the meanwhile old UI/game client
There are some improvements/fixxes more...but i will see what in a few hours will work hehe
schlat is offline  
Thanks
2 Users
Old   #389
 
elite*gold: 0
Join Date: Dec 2009
Posts: 133
Received Thanks: 16
I just wanted to say, thank you for all the time you put in your work!
beyonddead is offline  
Thanks
1 User
Old   #390
 
elite*gold: 0
Join Date: May 2009
Posts: 1,047
Received Thanks: 468
Quote:
Originally Posted by beyonddead View Post
I just wanted to say, thank you for all the time you put in your work!
hehehe Thanks kind of u, thanks from me too


ax5 is offline  
Thanks
1 User
Reply

Tags
bot, hero online, schlat



« Previous Thread | Next Thread »

Similar Threads
Schlatterbot Brasil
To AVOID some confusion!!! This bot is no longer supported by me! The Hero client has changed too, so it needs first to do some adaption, but this...
71 Replies - General Gaming Discussion
Suporte Para Schlatterbot Brasil
...
7 Replies - General Gaming Discussion
[Release] Schlatterbot Update Help ME...
http://i1005.hizliresim.com/2010/5/21/2487.jpg
11 Replies - General Gaming Discussion



All times are GMT +1. The time now is 20:45.


Powered by vBulletin®
Copyright ©2000 - 2017, Jelsoft Enterprises Ltd.
SEO by vBSEO ©2011, Crawlability, Inc.

Support | Contact Us | FAQ | Advertising | Privacy Policy | Abuse
Copyright ©2017 elitepvpers All Rights Reserved.